  0
SECTION
  2
HEADER
  9
$ACADVER
  1
AC1009
  9
$INSBASE
 10
0.0
 20
0.0
 30
0.0
  9
$EXTMIN
 10
-270.01647823492112
 20
-405.8021109186667
 30
-0.0015258207003583
  9
$EXTMAX
 10
270.0164807494923
 20
397.08808227102509
 30
0.0000000349246037
  9
$LIMMIN
 10
0.0
 20
0.0
  9
$LIMMAX
 10
0.0
 20
0.0
  9
$ORTHOMODE
 70
     0
  9
$REGENMODE
 70
     1
  9
$FILLMODE
 70
     1
  9
$QTEXTMODE
 70
     0
  9
$MIRRTEXT
 70
     1
  9
$DRAGMODE
 70
     2
  9
$LTSCALE
 40
15.24
  9
$OSMODE
 70
   231
  9
$ATTMODE
 70
     1
  9
$TEXTSIZE
 40
0.0
  9
$TRACEWID
 40
1.0
  9
$TEXTSTYLE
  7
STANDARD
  9
$CLAYER
  8
DATA
  9
$CELTYPE
  6
BYLAYER
  9
$CECOLOR
 62
   256
  9
$DIMSCALE
 40
1.0
  9
$DIMASZ
 40
0.18
  9
$DIMEXO
 40
0.0625
  9
$DIMDLI
 40
0.38
  9
$DIMRND
 40
0.0
  9
$DIMDLE
 40
0.0
  9
$DIMEXE
 40
0.18
  9
$DIMTP
 40
0.0
  9
$DIMTM
 40
0.0
  9
$DIMTXT
 40
0.18
  9
$DIMCEN
 40
0.09
  9
$DIMTSZ
 40
0.0
  9
$DIMTOL
 70
     0
  9
$DIMLIM
 70
     0
  9
$DIMTIH
 70
     1
  9
$DIMTOH
 70
     1
  9
$DIMSE1
 70
     0
  9
$DIMSE2
 70
     0
  9
$DIMTAD
 70
     0
  9
$DIMZIN
 70
     0
  9
$DIMBLK
  1

  9
$DIMASO
 70
     1
  9
$DIMSHO
 70
     1
  9
$DIMPOST
  1

  9
$DIMAPOST
  1

  9
$DIMALT
 70
     0
  9
$DIMALTD
 70
     2
  9
$DIMALTF
 40
25.399999999999999
  9
$DIMLFAC
 40
1.0
  9
$DIMTOFL
 70
     0
  9
$DIMTVP
 40
0.0
  9
$DIMTIX
 70
     0
  9
$DIMSOXD
 70
     0
  9
$DIMSAH
 70
     0
  9
$DIMBLK1
  1

  9
$DIMBLK2
  1

  9
$DIMSTYLE
  2
STANDARD
  9
$DIMCLRD
 70
     0
  9
$DIMCLRE
 70
     0
  9
$DIMCLRT
 70
     0
  9
$DIMTFAC
 40
1.0
  9
$DIMGAP
 40
0.09
  9
$LUNITS
 70
     2
  9
$LUPREC
 70
     4
  9
$SKETCHINC
 40
0.1
  9
$FILLETRAD
 40
0.0
  9
$AUNITS
 70
     0
  9
$AUPREC
 70
     0
  9
$MENU
  1
acad
  9
$ELEVATION
 40
0.0
  9
$PELEVATION
 40
0.0
  9
$THICKNESS
 40
0.0
  9
$LIMCHECK
 70
     0
  9
$BLIPMODE
 70
     0
  9
$CHAMFERA
 40
0.0
  9
$CHAMFERB
 40
0.0
  9
$SKPOLY
 70
     0
  9
$TDCREATE
 40
2456136.7027546298
  9
$TDUPDATE
 40
2456136.7122403821
  9
$TDINDWG
 40
0.0003806944
  9
$TDUSRTIMER
 40
0.0003806944
  9
$USRTIMER
 70
     1
  9
$ANGBASE
 50
0.0
  9
$ANGDIR
 70
     0
  9
$PDMODE
 70
     1
  9
$PDSIZE
 40
-2.0
  9
$PLINEWID
 40
0.0
  9
$COORDS
 70
     2
  9
$SPLFRAME
 70
     0
  9
$SPLINETYPE
 70
     6
  9
$SPLINESEGS
 70
     8
  9
$ATTDIA
 70
     0
  9
$ATTREQ
 70
     1
  9
$HANDLING
 70
     1
  9
$HANDSEED
  5
24E
  9
$SURFTAB1
 70
     6
  9
$SURFTAB2
 70
     6
  9
$SURFTYPE
 70
     6
  9
$SURFU
 70
     6
  9
$SURFV
 70
     6
  9
$UCSNAME
  2

  9
$UCSORG
 10
0.0
 20
0.0
 30
0.0
  9
$UCSXDIR
 10
1.0
 20
0.0
 30
0.0
  9
$UCSYDIR
 10
0.0
 20
1.0
 30
0.0
  9
$PUCSNAME
  2

  9
$PUCSORG
 10
0.0
 20
0.0
 30
0.0
  9
$PUCSXDIR
 10
1.0
 20
0.0
 30
0.0
  9
$PUCSYDIR
 10
0.0
 20
1.0
 30
0.0
  9
$USERI1
 70
     0
  9
$USERI2
 70
     0
  9
$USERI3
 70
     0
  9
$USERI4
 70
     0
  9
$USERI5
 70
     0
  9
$USERR1
 40
0.0
  9
$USERR2
 40
0.0
  9
$USERR3
 40
0.0
  9
$USERR4
 40
0.0
  9
$USERR5
 40
0.0
  9
$WORLDVIEW
 70
     1
  9
$SHADEDGE
 70
     3
  9
$SHADEDIF
 70
    70
  9
$TILEMODE
 70
     1
  9
$MAXACTVP
 70
    64
  9
$PLIMCHECK
 70
     0
  9
$PEXTMIN
 10
1.0000000000000000E+020
 20
1.0000000000000000E+020
 30
1.0000000000000000E+020
  9
$PEXTMAX
 10
-1.0000000000000000E+020
 20
-1.0000000000000000E+020
 30
-1.0000000000000000E+020
  9
$PLIMMIN
 10
0.0
 20
0.0
  9
$PLIMMAX
 10
12.0
 20
9.0
  9
$UNITMODE
 70
     0
  9
$VISRETAIN
 70
     0
  9
$PLINEGEN
 70
     1
  9
$PSLTSCALE
 70
     0
  0
ENDSEC
  0
SECTION
  2
TABLES
  0
TABLE
  2
VPORT
 70
     1
  0
VPORT
  2
*ACTIVE
 70
     0
 10
0.0
 20
0.0
 11
1.0
 21
1.0
 12
0.0000012572854757
 22
-4.3570143238208621
 13
0.0
 23
0.0
 14
1.0
 24
1.0
 15
0.0
 25
0.0
 16
0.0
 26
0.0
 36
1.0
 17
0.0
 27
0.0
 37
0.0
 40
809.2204706655632
 41
2.1881578947368419
 42
50.0
 43
0.0
 44
0.0
 50
0.0
 51
0.0
 71
     0
 72
  2000
 73
     1
 74
     1
 75
     0
 76
     0
 77
     0
 78
     0
  0
ENDTAB
  0
TABLE
  2
LTYPE
 70
    12
  0
LTYPE
  2
CONTINUOUS
 70
     0
  3
Solid line
 72
    65
 73
     0
 40
0.0
  0
LTYPE
  2
PHANTOM2
 70
     0
  3
___ _ _ ___ _ _ ___ _ _ ___ _ _
 72
    65
 73
     6
 40
1.25
 49
0.625
 49
-0.125
 49
0.125
 49
-0.125
 49
0.125
 49
-0.125
  0
LTYPE
  2
STYLE_05
 70
     0
  3

 72
    65
 73
     2
 40
0.208282470703125
 49
0.069427490234375
 49
-0.13885498046875
  0
ENDTAB
  0
TABLE
  2
LAYER
 70
     5
  0
LAYER
  2
0
 70
     0
 62
     7
  6
CONTINUOUS
  0
LAYER
  2
DATA
 70
     0
 62
     7
  6
CONTINUOUS
  0
LAYER
  2
HIBINO-BASE
 70
     0
 62
     7
  6
CONTINUOUS
  0
LAYER
  2
SPEC
 70
     0
 62
     7
  6
CONTINUOUS
  0
LAYER
  2
DIMNSIONS
 70
     0
 62
     7
  6
CONTINUOUS
  0
ENDTAB
  0
TABLE
  2
STYLE
 70
     3
  0
STYLE
  2
STANDARD
 70
     0
 40
0.0
 41
1.0
 50
0.0
 71
     0
 42
0.0
  3
txt
  4
BIGFONT.SHX
  0
ENDTAB
  0
TABLE
  2
VIEW
 70
     0
  0
ENDTAB
  0
TABLE
  2
UCS
 70
     0
  0
ENDTAB
  0
TABLE
  2
APPID
 70
     4
  0
APPID
  2
ACAD
 70
     0
  0
APPID
  2
ACADANNOTATIVE
 70
     0
  0
APPID
  2
ACAD_NAV_VCDISPLAY
 70
     0
  0
APPID
  2
ACAD_MLEADERVER
 70
     0
  0
ENDTAB
  0
TABLE
  2
DIMSTYLE
 70
     2
  0
DIMSTYLE
  2
STANDARD
 70
     0
  3

  4

  5

  6

  7

 40
1.0
 41
0.18
 42
0.0625
 43
0.38
 44
0.18
 45
0.0
 46
0.0
 47
0.0
 48
0.0
140
0.18
141
0.09
142
0.0
143
25.399999999999999
144
1.0
145
0.0
146
1.0
147
0.09
 71
     0
 72
     0
 73
     1
 74
     1
 75
     0
 76
     0
 77
     0
 78
     0
170
     0
171
     2
172
     0
173
     0
174
     0
175
     0
176
     0
177
     0
178
     0
  0
ENDTAB
  0
ENDSEC
  0
SECTION
  2
BLOCKS
  0
BLOCK
  8
0
  2
$MODEL_SPACE
 70
     0
 10
0.0
 20
0.0
 30
0.0
  3
$MODEL_SPACE
  1

  0
ENDBLK
  5
1E1
  8
0
  0
BLOCK
 67
     1
  8
0
  2
$PAPER_SPACE
 70
     0
 10
0.0
 20
0.0
 30
0.0
  3
$PAPER_SPACE
  1

  0
ENDBLK
  5
1DD
 67
     1
  8
0
  0
ENDSEC
  0
SECTION
  2
ENTITIES
  0
LINE
  5
2C
  8
HIBINO-BASE
  6
CONTINUOUS
 62
     7
 10
-269.99999999999989
 20
397.06362999999999
 30
0.0
 11
269.99999999999989
 21
397.06362999999999
 31
0.0
  0
LINE
  5
2D
  8
HIBINO-BASE
  6
CONTINUOUS
 62
     7
 10
269.99999999999989
 20
-382.93637000000001
 30
0.0
 11
-269.99999999999989
 21
-382.93637000000001
 31
0.0
  0
LINE
  5
2E
  8
HIBINO-BASE
  6
CONTINUOUS
 62
     7
 10
-269.99999999999989
 20
-382.93637000000001
 30
0.0
 11
-269.99999999999989
 21
397.06362999999999
 31
0.0
  0
TEXT
  5
2F
  8
HIBINO-BASE
 62
     7
 10
-248.44800000000001
 20
-402.1624033999999
 30
0.0
 40
10.800132539062499
  1
Hibino Corporation
 41
0.7
 11
-248.44800000000001
 21
-391.36227086093749
 31
0.0
 73
     3
  0
LINE
  5
30
  8
HIBINO-BASE
  6
CONTINUOUS
 62
     7
 10
269.99999999999989
 20
397.06362999999999
 30
0.0
 11
269.99999999999989
 21
-382.93637000000001
 31
0.0
  0
LINE
  5
31
  8
HIBINO-BASE
  6
CONTINUOUS
 62
     7
 10
0.0
 20
-315.4363699999999
 30
0.0
 11
269.99999999999989
 21
-315.4363699999999
 31
0.0
  0
LINE
  5
32
  8
HIBINO-BASE
  6
CONTINUOUS
 62
     7
 10
0.0
 20
-382.93637000000001
 30
0.0
 11
0.0
 21
-315.4363699999999
 31
0.0
  0
TEXT
  5
33
  8
HIBINO-BASE
 62
     7
 10
2.6999999999999988
 20
-322.96244999999999
 30
0.0
 40
4.8865234374999993
  1
NOTE
 41
0.7
 11
2.7000000000000002
 21
-318.0759265625
 31
0.0
 73
     3
  0
LINE
  5
34
  8
HIBINO-BASE
  6
CONTINUOUS
 62
     7
 10
105.0
 20
-382.93637000000001
 30
0.0
 11
105.0
 21
-315.4363699999999
 31
0.0
  0
TEXT
  5
35
  8
HIBINO-BASE
 62
     7
 10
107.7
 20
-322.96244999999999
 30
0.0
 40
4.8865234374999993
  1
TITLE
 41
0.7
 11
107.7
 21
-318.0759265625
 31
0.0
 73
     3
  0
TEXT
  5
36
  8
HIBINO-BASE
 62
     7
 10
150.2051699999999
 20
-402.1624033999999
 30
0.0
 40
10.800132539062499
  1
ヒビノ株式会社
 41
0.7
 11
150.2051699999999
 21
-391.36227086093749
 31
0.0
 73
     3
  0
LINE
  5
37
  8
HIBINO-BASE
  6
CONTINUOUS
 62
     7
 10
0.0
 20
-352.9363699999999
 30
0.0
 11
269.99999999999989
 21
-352.9363699999999
 31
0.0
  0
TEXT
  5
38
  8
HIBINO-BASE
 62
     7
 10
145.19999999999999
 20
-360.29349000000002
 30
0.0
 40
4.8865234374999993
  1
DRAWN
 41
0.7
 11
145.19999999999999
 21
-355.40696656249997
 31
0.0
 73
     3
  0
TEXT
  5
39
  8
HIBINO-BASE
 62
     7
 10
70.199999999999989
 20
-360.29349000000002
 30
0.0
 40
4.8865234374999993
  1
DATE
 41
0.7
 11
70.199999999999989
 21
-355.40696656249997
 31
0.0
 73
     3
  0
TEXT
  5
3A
  8
HIBINO-BASE
 62
     7
 10
40.200000000000003
 20
-360.29349000000002
 30
0.0
 40
4.8865234374999993
  1
SCALE
 41
0.7
 11
40.200000000000003
 21
-355.40696656249997
 31
0.0
 73
     3
  0
TEXT
  5
3B
  8
HIBINO-BASE
 62
     7
 10
107.7
 20
-360.29349000000002
 30
0.0
 40
4.8865234374999993
  1
DESIGN
 41
0.7
 11
107.7
 21
-355.40696656249997
 31
0.0
 73
     3
  0
TEXT
  5
3C
  8
HIBINO-BASE
 62
     7
 10
220.19999999999999
 20
-360.29349000000002
 30
0.0
 40
4.8865234374999993
  1
DRAWING NO.
 41
0.7
 11
220.19999999999999
 21
-355.40696656249997
 31
0.0
 73
     3
  0
TEXT
  5
3D
  8
HIBINO-BASE
 62
     7
 10
182.69999999999999
 20
-360.29349000000002
 30
0.0
 40
4.8865234374999993
  1
CHECK
 41
0.7
 11
182.69999999999999
 21
-355.40696656249997
 31
0.0
 73
     3
  0
LINE
  5
3E
  8
HIBINO-BASE
  6
CONTINUOUS
 62
     7
 10
43.124999999999993
 20
-379.18637000000001
 30
0.0
 11
54.375
 21
-367.93637000000001
 31
0.0
  0
TEXT
  5
3F
  8
HIBINO-BASE
 62
     7
 10
41.249999999999993
 20
-371.26319999999998
 30
0.0
 40
4.8865234374999993
  1
1
 41
0.7
 11
41.249999999999993
 21
-366.37667656249999
 31
0.0
 73
     3
  0
LINE
  5
40
  8
HIBINO-BASE
  6
CONTINUOUS
 62
     7
 10
37.5
 20
-382.93637000000001
 30
0.0
 11
37.5
 21
-352.9363699999999
 31
0.0
  0
LINE
  5
41
  8
HIBINO-BASE
  6
CONTINUOUS
 62
     7
 10
67.499999999999986
 20
-382.93637000000001
 30
0.0
 11
67.499999999999986
 21
-352.9363699999999
 31
0.0
  0
LINE
  5
42
  8
HIBINO-BASE
  6
CONTINUOUS
 62
     7
 10
142.5
 20
-352.9363699999999
 30
0.0
 11
142.5
 21
-382.93637000000001
 31
0.0
  0
LINE
  5
43
  8
HIBINO-BASE
  6
CONTINUOUS
 62
     7
 10
217.5
 20
-352.9363699999999
 30
0.0
 11
217.5
 21
-382.93637000000001
 31
0.0
  0
LINE
  5
44
  8
HIBINO-BASE
  6
CONTINUOUS
 62
     7
 10
180.0
 20
-382.93637000000001
 30
0.0
 11
180.0
 21
-352.9363699999999
 31
0.0
  0
TEXT
  5
45
  8
HIBINO-BASE
 62
     7
 10
70.06962
 20
-374.34543000000002
 30
0.0
 40
4.8865234374999993
  1
'12.07.
 41
0.7
 11
70.06962
 21
-369.45890656249998
 31
0.0
 73
     3
  0
TEXT
  5
46
  8
HIBINO-BASE
 62
     7
 10
52.5
 20
-376.88819999999998
 30
0.0
 40
4.8865234374999993
  1
3
 41
0.7
 11
52.5
 21
-372.00167656249999
 31
0.0
 73
     3
  0
TEXT
  5
47
  8
HIBINO-BASE
 62
     7
 10
147.01743003310381
 20
-374.34543000000002
 30
0.0
 40
4.8865234374999993
  1
Ootake
 41
0.7
 11
147.01743003310381
 21
-369.45890656249998
 31
0.0
 73
     3
  0
TEXT
  5
48
  8
HIBINO-BASE
 62
     7
 10
11.65000000000005
 20
-377.00837000000001
 30
0.0
 40
9.7730468749999986
  1
A4
 41
0.7
 11
11.65000000000005
 21
-367.23532312499998
 31
0.0
 73
     3
  0
TEXT
  5
49
  8
HIBINO-BASE
 62
     7
 10
2.874999999999996
 20
-360.794735
 30
0.0
 40
4.8865234374999993
  1
PAPER SIZE
 41
0.7
 11
2.874999999999996
 21
-355.90821156250001
 31
0.0
 73
     3
  0
LINE
  5
4A
  8
SPEC
  6
CONTINUOUS
 62
     7
 10
-247.5
 20
367.06362999999988
 30
0.0
 11
195.0
 21
367.06362999999988
 31
0.0
  0
LINE
  5
4B
  8
SPEC
  6
CONTINUOUS
 62
     7
 10
-247.5
 20
355.81362999999988
 30
0.0
 11
195.0
 21
355.81362999999988
 31
0.0
  0
LINE
  5
4C
  8
SPEC
  6
CONTINUOUS
 62
     7
 10
-247.5
 20
310.81362999999988
 30
0.0
 11
195.0
 21
310.81362999999988
 31
0.0
  0
LINE
  5
4D
  8
SPEC
  6
CONTINUOUS
 62
     7
 10
-247.5
 20
322.06362999999988
 30
0.0
 11
195.0
 21
322.06362999999988
 31
0.0
  0
LINE
  5
4E
  8
SPEC
  6
CONTINUOUS
 62
     7
 10
-247.5
 20
333.31362999999999
 30
0.0
 11
195.0
 21
333.31362999999999
 31
0.0
  0
LINE
  5
4F
  8
SPEC
  6
CONTINUOUS
 62
     7
 10
-247.5
 20
299.56362999999988
 30
0.0
 11
195.0
 21
299.56362999999988
 31
0.0
  0
LINE
  5
50
  8
SPEC
  6
CONTINUOUS
 62
     7
 10
-247.5
 20
344.56362999999988
 30
0.0
 11
195.0
 21
344.56362999999988
 31
0.0
  0
TEXT
  5
51
  8
SPEC
 62
     7
 10
-148.1758694201522
 20
358.64901679546648
 30
0.0
 40
5.700933749999999
  1
コンデンサー型 
 41
0.7
 11
-148.1758694201522
 21
364.34995054546653
 31
0.0
 73
     3
  0
LINE
  5
52
  8
SPEC
  6
CONTINUOUS
 62
     7
 10
-247.5
 20
367.06362999999988
 30
0.0
 11
-247.5
 21
220.81362999999999
 31
0.0
  0
TEXT
  5
53
  8
SPEC
 62
     7
 10
-243.75
 20
371.24344000000002
 30
0.0
 40
7.3297851562499989
  1
仕様
 41
0.7
 11
-243.75
 21
378.57322515624998
 31
0.0
 73
     3
  0
LINE
  5
54
  8
SPEC
  6
CONTINUOUS
 62
     7
 10
-150.0
 20
367.06362999999988
 30
0.0
 11
-150.0
 21
220.81362999999999
 31
0.0
  0
TEXT
  5
55
  8
SPEC
 62
     7
 10
-244.8311864278123
 20
313.7075640728093
 30
0.0
 40
5.700933749999999
  1
最大音圧レベル
 41
0.7
 11
-244.8311864278123
 21
319.4084978228093
 31
0.0
 73
     3
  0
TEXT
  5
56
  8
SPEC
 62
     7
 10
-245.03671114225841
 20
358.69462839706569
 30
0.0
 40
5.700933749999999
  1
形式
 41
0.7
 11
-245.03671114225841
 21
364.39556214706568
 31
0.0
 73
     3
  0
TEXT
  5
57
  8
SPEC
 62
     7
 10
-245.1278491875938
 20
324.84891518404919
 30
0.0
 40
5.700933749999999
  1
開回路感度
 41
0.7
 11
-245.1278491875938
 21
330.54984893404918
 31
0.0
 73
     3
  0
TEXT
  5
58
  8
SPEC
 62
     7
 10
-244.8932243459866
 20
302.05169392798223
 30
0.0
 40
5.700933749999999
  1
等価雑音レベル
 41
0.7
 11
-244.8932243459866
 21
307.7526276779821
 31
0.0
 73
     3
  0
TEXT
  5
59
  8
SPEC
 62
     7
 10
-244.95294530680641
 20
347.34712259966528
 30
0.0
 40
5.700933749999999
  1
指向特性
 41
0.7
 11
-244.95294530680641
 21
353.04805634966527
 31
0.0
 73
     3
  0
TEXT
  5
5A
  8
SPEC
 62
     7
 10
-244.83133591311829
 20
336.22098440068748
 30
0.0
 40
5.700933749999999
  1
周波数特性
 41
0.7
 11
-244.83133591311829
 21
341.92191815068747
 31
0.0
 73
     3
  0
TEXT
  5
5B
  8
SPEC
 62
     7
 10
-147.2999999999999
 20
313.1773948
 30
0.0
 40
5.700933749999999
  1
125dB SPL(THD 1%%%)
 41
0.7
 11
-147.2999999999999
 21
318.87832854999999
 31
0.0
 73
     3
  0
TEXT
  5
5C
  8
SPEC
 62
     7
 10
-147.11882469228109
 20
324.9709207231565
 30
0.0
 40
5.700933749999999
  1
-35dB re 1V/Pa
 41
0.7
 11
-147.11882469228109
 21
330.67185447315649
 31
0.0
 73
     3
  0
TEXT
  5
5D
  8
SPEC
 62
     7
 10
-147.2999999999999
 20
301.99549817526253
 30
0.0
 40
5.700933749999999
  1
21dB SPL(Aウェイト)
 41
0.7
 11
-147.2999999999999
 21
307.69643192526252
 31
0.0
 73
     3
  0
TEXT
  5
5E
  8
SPEC
 62
     7
 10
-147.4355569878164
 20
335.948508775633
 30
0.0
 40
5.700933749999999
  1
70Hz～18kHz
 41
0.7
 11
-147.4355569878164
 21
341.64944252563288
 31
0.0
 73
     3
  0
TEXT
  5
5F
  8
SPEC
 62
     7
 10
-147.9295815154793
 20
347.4519132819683
 30
0.0
 40
5.700933749999999
  1
カーディオイド
 41
0.7
 11
-147.9295815154793
 21
353.15284703196818
 31
0.0
 73
     3
  0
LINE
  5
60
  8
SPEC
  6
CONTINUOUS
 62
     7
 10
-247.5
 20
288.31362999999988
 30
0.0
 11
195.0
 21
288.31362999999988
 31
0.0
  0
LINE
  5
61
  8
SPEC
  6
CONTINUOUS
 62
     7
 10
-247.5
 20
277.06362999999999
 30
0.0
 11
195.0
 21
277.06362999999999
 31
0.0
  0
LINE
  5
62
  8
SPEC
  6
CONTINUOUS
 62
     7
 10
-247.5
 20
265.81362999999999
 30
0.0
 11
195.0
 21
265.81362999999999
 31
0.0
  0
TEXT
  5
63
  8
SPEC
 62
     7
 10
-245.98577193971749
 20
291.44465899628779
 30
0.0
 40
5.700933749999999
  1
ローカットフィルイター
 41
0.7
 11
-245.98577193971749
 21
297.14559274628778
 31
0.0
 73
     3
  0
TEXT
  5
64
  8
SPEC
 62
     7
 10
-147.7086202515751
 20
290.74549817526253
 30
0.0
 40
5.700933749999999
  1
150Hz(12dB/oct)*ジャンパーで設定
 41
0.7
 11
-147.7086202515751
 21
296.44643192526252
 31
0.0
 73
     3
  0
LINE
  5
65
  8
SPEC
  6
CONTINUOUS
 62
     7
 10
-247.5
 20
254.5636299999999
 30
0.0
 11
195.0
 21
254.5636299999999
 31
0.0
  0
TEXT
  5
66
  8
SPEC
 62
     7
 10
-244.87849946554741
 20
224.1714595292782
 30
0.0
 40
5.7009440104166647
  1
付属品
 41
0.7
 11
-244.87849946554741
 21
229.8724035396948
 31
0.0
 73
     3
  0
TEXT
  5
67
  8
SPEC
 62
     7
 10
-245.06514296147549
 20
246.78654563639731
 30
0.0
 40
5.7009440104166647
  1
寸法
 41
0.7
 11
-245.06514296147549
 21
252.487489646814
 31
0.0
 73
     3
  0
TEXT
  5
68
  8
SPEC
 62
     7
 10
-244.99555824109041
 20
234.90495109641259
 30
0.0
 40
5.7009440104166647
  1
重量
 41
0.7
 11
-244.99555824109041
 21
240.60589510682919
 31
0.0
 73
     3
  0
TEXT
  5
69
  8
SPEC
 62
     7
 10
-148.0250465880074
 20
223.83057320114699
 30
0.0
 40
5.7009440104166647
  1
ウインドスクリーン
 41
0.7
 11
-148.0250465880074
 21
229.53151721156371
 31
0.0
 73
     3
  0
TEXT
  5
6A
  8
SPEC
 62
     7
 10
-147.7341307482705
 20
246.2453973763709
 30
0.0
 40
5.7009440104166647
  1
19\U+03A6\U+00D7385mm(突起部含まず)
 41
0.7
 11
-147.7341307482705
 21
251.94634138678751
 31
0.0
 73
     3
  0
TEXT
  5
6B
  8
SPEC
 62
     7
 10
-147.42161595919831
 20
235.1257282888198
 30
0.0
 40
5.7009440104166647
  1
約150g
 41
0.7
 11
-147.42161595919831
 21
240.82667229923649
 31
0.0
 73
     3
  0
LINE
  5
6C
  8
SPEC
  6
CONTINUOUS
 62
     7
 10
-247.5
 20
243.31362999999999
 30
0.0
 11
195.0
 21
243.31362999999999
 31
0.0
  0
LINE
  5
6D
  8
SPEC
  6
CONTINUOUS
 62
     7
 10
-247.5
 20
232.06362999999999
 30
0.0
 11
195.0
 21
232.06362999999999
 31
0.0
  0
LINE
  5
6E
  8
SPEC
  6
CONTINUOUS
 62
     7
 10
-247.5
 20
220.81362999999999
 30
0.0
 11
195.0
 21
220.81362999999999
 31
0.0
  0
TEXT
  5
6F
  8
SPEC
 62
     7
 10
-245.98577193971749
 20
280.19465899628779
 30
0.0
 40
5.700933749999999
  1
インピーダンス
 41
0.7
 11
-245.98577193971749
 21
285.89559274628778
 31
0.0
 73
     3
  0
TEXT
  5
70
  8
SPEC
 62
     7
 10
-147.7086202515751
 20
279.8670832577352
 30
0.0
 40
5.700933749999999
  1
600\U+03A9以下
 41
0.7
 11
-147.7086202515751
 21
285.56801700773519
 31
0.0
 73
     3
  0
TEXT
  5
71
  8
SPEC
 62
     7
 10
-245.98577193971749
 20
268.94465899628779
 30
0.0
 40
5.700933749999999
  1
電源
 41
0.7
 11
-245.98577193971749
 21
274.64559274628778
 31
0.0
 73
     3
  0
TEXT
  5
72
  8
SPEC
 62
     7
 10
-147.7086202515751
 20
268.6170832577352
 30
0.0
 40
5.700933749999999
  1
ファンタムDC9V～52V/3mA以下
 41
0.7
 11
-147.7086202515751
 21
274.31801700773508
 31
0.0
 73
     3
  0
LINE
  5
73
  8
SPEC
  6
CONTINUOUS
 62
     7
 10
195.0
 20
367.06362999999988
 30
0.0
 11
195.0
 21
220.8136299999999
 31
0.0
  0
TEXT
  5
74
  8
SPEC
 62
     7
 10
-245.98577193971749
 20
257.69465899628779
 30
0.0
 40
5.700933749999999
  1
コネクター
 41
0.7
 11
-245.98577193971749
 21
263.39559274628778
 31
0.0
 73
     3
  0
TEXT
  5
75
  8
SPEC
 62
     7
 10
-147.7086202515751
 20
257.13119375275141
 30
0.0
 40
5.700933749999999
  1
XLR3ピン
 41
0.7
 11
-147.7086202515751
 21
262.8321275027514
 31
0.0
 73
     3
  0
TEXT
  5
76
  8
DIMNSIONS
 62
     7
 10
-60.0
 20
-346.12790000000001
 30
0.0
 40
7.3297851562499989
  1
(単位：mm)
 41
0.7
 11
-60.0
 21
-338.79811484375
 31
0.0
 73
     3
  0
LINE
  5
77
  8
DIMNSIONS
  6
CONTINUOUS
 62
     7
 10
-136.0
 20
-260.0
 30
0.0
 11
-186.0
 21
-260.0
 31
0.0
  0
LINE
  5
78
  8
DIMNSIONS
  6
CONTINUOUS
 62
     7
 10
-129.5
 20
124.9999999999999
 30
0.0
 11
-186.0
 21
124.9999999999999
 31
0.0
  0
LINE
  5
79
  8
DIMNSIONS
  6
CONTINUOUS
 62
     7
 10
-180.0
 20
-260.0
 30
0.0
 11
-180.0
 21
124.9999999999999
 31
0.0
  0
LINE
  5
7A
  8
DIMNSIONS
  6
CONTINUOUS
 62
     7
 10
-180.0
 20
-260.0
 30
0.0
 11
-182.01011938545071
 21
-252.4981323242188
 31
0.0
  0
LINE
  5
7B
  8
DIMNSIONS
  6
CONTINUOUS
 62
     7
 10
-180.0
 20
-260.0
 30
0.0
 11
-177.98988061454921
 21
-252.4981323242188
 31
0.0
  0
LINE
  5
7C
  8
DIMNSIONS
  6
CONTINUOUS
 62
     7
 10
-180.0
 20
124.9999999999999
 30
0.0
 11
-177.98988061454921
 21
117.4981323242187
 31
0.0
  0
LINE
  5
7D
  8
DIMNSIONS
  6
CONTINUOUS
 62
     7
 10
-180.0
 20
124.9999999999999
 30
0.0
 11
-182.01011938545071
 21
117.4981323242187
 31
0.0
  0
TEXT
  5
7E
  8
DIMNSIONS
 62
     7
 10
-182.9816666666666
 20
-75.437500000000014
 30
0.0
 40
8.1442057291666661
  1
385
 50
90.0
 41
0.7
 11
-191.12587239583331
 21
-75.437500000000014
 31
0.0
 73
     3
  0
LINE
  5
7F
  8
DIMNSIONS
  6
CONTINUOUS
 62
     7
 10
-127.2175144212722
 20
-296.83766251789052
 30
0.0
 11
-140.0
 21
-309.62014809661832
 31
0.0
  0
LINE
  5
80
  8
DIMNSIONS
  6
CONTINUOUS
 62
     7
 10
-127.2175144212722
 20
-296.83766251789052
 30
0.0
 11
-131.10076687793449
 21
-303.56365307144642
 31
0.0
  0
LINE
  5
81
  8
DIMNSIONS
  6
CONTINUOUS
 62
     7
 10
-127.2175144212722
 20
-296.83766251789052
 30
0.0
 11
-133.94350497482799
 21
-300.72091497455278
 31
0.0
  0
LINE
  5
82
  8
DIMNSIONS
  6
CONTINUOUS
 62
     7
 10
-140.0
 20
-309.62014809661832
 30
0.0
 11
-167.1666666666666
 21
-309.62014809661832
 31
0.0
  0
TEXT
  5
83
  8
DIMNSIONS
 62
     7
 10
-167.16666666666671
 20
-306.6384814299517
 30
0.0
 40
8.1442057291666661
  1
\U+03C619
 41
0.7
 11
-167.16666666666671
 21
-298.49427570078501
 31
0.0
 73
     3
  0
LINE
  5
84
  8
DIMNSIONS
  6
CONTINUOUS
 62
     7
 10
-125.24708092568081
 20
164.86880094941631
 30
0.0
 11
-140.0
 21
180.0
 31
0.0
  0
LINE
  5
85
  8
DIMNSIONS
  6
CONTINUOUS
 62
     7
 10
-125.24708092568081
 20
164.86880094941631
 30
0.0
 11
-131.90427497812499
 21
168.8688466887545
 31
0.0
  0
LINE
  5
86
  8
DIMNSIONS
  6
CONTINUOUS
 62
     7
 10
-125.24708092568081
 20
164.86880094941631
 30
0.0
 11
-129.0123572233511
 21
171.66153920220501
 31
0.0
  0
LINE
  5
87
  8
DIMNSIONS
  6
CONTINUOUS
 62
     7
 10
-140.0
 20
180.0
 30
0.0
 11
-177.75
 21
180.0
 31
0.0
  0
TEXT
  5
88
  8
DIMNSIONS
 62
     7
 10
-177.75
 20
182.9816667108237
 30
0.0
 40
8.1442059718829345
  1
\U+03C613.6
 41
0.7
 11
-177.75
 21
191.12587268270661
 31
0.0
 73
     3
  0
TEXT
  5
89
  8
DATA
 62
     7
 10
150.0
 20
-349.5437
 30
0.0
 40
7.3297851562499989
  1
CGN 99 C/S
 41
0.7
 11
150.0
 21
-342.21391484374999
 31
0.0
 73
     3
  0
TEXT
  5
8A
  8
DATA
 62
     7
 10
150.0
 20
-327.7937
 30
0.0
 40
7.3297851562499989
  1
AKG
 41
0.7
 11
150.0
 21
-320.46391484374999
 31
0.0
 73
     3
  0
TEXT
  5
8B
  8
DATA
 62
     7
 10
142.5
 20
-337.79102521701458
 30
0.0
 40
4.8865311328124994
  1
グースネック・マイクロホン
 41
0.7
 11
142.5
 21
-332.9044940842021
 31
0.0
 73
     3
  0
TEXT
  5
8C
  8
DATA
 62
     7
 10
-240.0
 20
-370.22237000000001
 30
0.0
 40
4.8865234374999993
  1
仕様および外観は予告なく変更されることがありますので、ご了承ください。
 41
0.7
 11
-240.0
 21
-365.33584656250002
 31
0.0
 73
     3
  0
LINE
  5
8D
  8
DATA
  6
CONTINUOUS
 62
     7
 10
-130.0
 20
-260.0
 30
0.0
 11
-130.0
 21
-194.03015018276801
 31
0.0
  0
LINE
  5
8E
  8
DATA
  6
CONTINUOUS
 62
     7
 10
-111.0
 20
-260.0
 30
0.0
 11
-130.0
 21
-260.0
 31
0.0
  0
LINE
  5
8F
  8
DATA
  6
CONTINUOUS
 62
     7
 10
-123.5
 20
-86.999999999999943
 30
0.0
 11
-123.5
 21
-151.0
 31
0.0
  0
LINE
  5
90
  8
DATA
  6
CONTINUOUS
 62
     7
 10
-117.5
 20
-87.0
 30
0.0
 11
-117.5
 21
-151.0
 31
0.0
  0
CIRCLE
  5
91
  8
DATA
  6
CONTINUOUS
 62
     7
 10
-120.5
 20
-290.12014809661832
 30
0.0
 40
9.5
  0
ARC
  5
92
  8
DATA
  6
CONTINUOUS
 62
     7
 10
-120.5000000000009
 20
-290.12014809661969
 30
0.0
 40
8.0000000000016183
 50
65.640235005786664
 51
48.689305883291077
  0
CIRCLE
  5
93
  8
DATA
  6
CONTINUOUS
 62
     7
 10
-124.5
 20
-290.12014809661832
 30
0.0
 40
1.200000000000002
  0
CIRCLE
  5
94
  8
DATA
  6
CONTINUOUS
 62
     7
 10
-120.5
 20
-294.12014809661832
 30
0.0
 40
1.200000000000002
  0
CIRCLE
  5
95
  8
DATA
  6
CONTINUOUS
 62
     7
 10
-116.5
 20
-290.12014809661832
 30
0.0
 40
1.200000000000002
  0
ARC
  5
96
  8
DATA
  6
CONTINUOUS
 62
     7
 10
-116.3305195445661
 20
-283.65910900748599
 30
0.0
 40
1.2000000000000011
 50
337.8771943596484
 51
136.45234652942699
  0
ARC
  5
97
  8
DATA
  6
CONTINUOUS
 62
     7
 10
-120.5
 20
-285.25000000000028
 30
0.0
 40
4.8701480966185926
 50
64.493439204739957
 51
115.5065607952602
  0
LINE
  5
98
  8
DATA
  6
CONTINUOUS
 62
     7
 10
-125.09999999999999
 20
-151.0
 30
0.0
 11
-115.90000000000001
 21
-151.0
 31
0.0
  0
CIRCLE
  5
99
  8
DATA
  6
CONTINUOUS
 62
     7
 10
-120.5
 20
-243.0
 30
0.0
 40
2.1500000000000048
  0
LINE
  5
9A
  8
DATA
  6
CONTINUOUS
 62
     7
 10
-121.2128925500252
 20
-243.0
 30
0.0
 11
-119.7871074499747
 21
-243.0
 31
0.0
  0
LINE
  5
9B
  8
DATA
  6
CONTINUOUS
 62
     7
 10
-120.5
 20
-243.71289255002529
 30
0.0
 11
-120.5
 21
-242.2871074499748
 31
0.0
  0
LINE
  5
9C
  8
DATA
  6
CONTINUOUS
 62
     7
 10
-129.59497512179979
 20
-185.99025370581859
 30
0.0
 11
-129.09097052693841
 21
-181.0006082166901
 31
0.0
  0
ARC
  5
9D
  8
DATA
  6
CONTINUOUS
 62
     7
 10
-940.14499999996315
 20
-42.257272727279897
 30
0.0
 40
822.767161880407
 50
350.43111332651512
 51
351.41338444162358
  0
ARC
  5
9E
  8
DATA
  6
CONTINUOUS
 62
     7
 10
-184.9535714285702
 20
-151.13214285714301
 30
0.0
 40
60.002002730179818
 50
346.53862234905949
 51
355.9690531258301
  0
LINE
  5
9F
  8
DATA
  6
CONTINUOUS
 62
     7
 10
-125.09999999999999
 20
-155.34999999999999
 30
0.0
 11
-125.09999999999999
 21
-151.0
 31
0.0
  0
ARC
  5
A0
  8
DATA
  6
CONTINUOUS
 62
     7
 10
-99.242854856295565
 20
-184.0155693955428
 30
0.0
 40
29.999999999967748
 50
170.43111332651091
 51
174.2321111020859
  0
ARC
  5
A1
  8
DATA
  6
CONTINUOUS
 62
     7
 10
-50.000000000000021
 20
-194.03015018276801
 30
0.0
 40
79.999999999999986
 50
174.2321111020859
 51
180.0
  0
LINE
  5
A2
  8
DATA
  6
CONTINUOUS
 62
     7
 10
-111.0
 20
-260.0
 30
0.0
 11
-111.0
 21
-194.03015018276801
 31
0.0
  0
LINE
  5
A3
  8
DATA
  6
CONTINUOUS
 62
     7
 10
-111.40502487820009
 20
-185.99025370581859
 30
0.0
 11
-111.90902947306159
 21
-181.0006082166901
 31
0.0
  0
ARC
  5
A4
  8
DATA
  6
CONTINUOUS
 62
     7
 10
699.14499999996315
 20
-42.257272727279897
 30
0.0
 40
822.767161880407
 50
188.58661555837639
 51
189.56888667348491
  0
ARC
  5
A5
  8
DATA
  6
CONTINUOUS
 62
     7
 10
-56.046428571429779
 20
-151.13214285714301
 30
0.0
 40
60.002002730179811
 50
184.0309468741699
 51
193.46137765094051
  0
LINE
  5
A6
  8
DATA
  6
CONTINUOUS
 62
     7
 10
-115.90000000000001
 20
-155.34999999999999
 30
0.0
 11
-115.90000000000001
 21
-151.0
 31
0.0
  0
ARC
  5
A7
  8
DATA
  6
CONTINUOUS
 62
     7
 10
-141.75714514370441
 20
-184.0155693955428
 30
0.0
 40
29.999999999967759
 50
5.7678888979140339
 51
9.5688866734890876
  0
ARC
  5
A8
  8
DATA
  6
CONTINUOUS
 62
     7
 10
-191.0
 20
-194.03015018276801
 30
0.0
 40
80.0
 50
0.0000000000000568
 51
5.7678888979140748
  0
LINE
  5
A9
  8
DATA
  6
CONTINUOUS
 62
     7
 10
-125.3
 20
-87.0
 30
0.0
 11
-115.7
 21
-87.0
 31
0.0
  0
LINE
  5
AA
  8
DATA
  6
CONTINUOUS
 62
     7
 10
-123.5
 20
-57.0
 30
0.0
 11
-117.5
 21
-57.0
 31
0.0
  0
LINE
  5
AB
  8
DATA
  6
CONTINUOUS
 62
     7
 10
-125.3
 20
-87.0
 30
0.0
 11
-125.3
 21
-82.0
 31
0.0
  0
LINE
  5
AC
  8
DATA
  6
CONTINUOUS
 62
     7
 10
-115.7
 20
-87.0
 30
0.0
 11
-115.7
 21
-82.0
 31
0.0
  0
ARC
  5
AD
  8
DATA
  6
CONTINUOUS
 62
     7
 10
35.74380530973113
 20
-81.030353982300625
 30
0.0
 40
161.04672440642261
 50
171.418646421874
 51
180.34497417014839
  0
LINE
  5
AE
  8
DATA
  6
CONTINUOUS
 62
     7
 10
-115.7
 20
-87.0
 30
0.0
 11
-115.7
 21
-82.0
 31
0.0
  0
ARC
  5
AF
  8
DATA
  6
CONTINUOUS
 62
     7
 10
-276.7438053097311
 20
-81.030353982300625
 30
0.0
 40
161.0467244064225
 50
359.65502582985152
 51
8.5813535781260271
  0
LINE
  5
B0
  8
DATA
  6
CONTINUOUS
 62
     7
 10
-123.5
 20
82.0
 30
0.0
 11
-117.5
 21
82.0
 31
0.0
  0
LINE
  5
B1
  8
DATA
  6
CONTINUOUS
 62
     7
 10
-123.5
 20
-57.0
 30
0.0
 11
-123.5
 21
82.0
 31
0.0
  0
LINE
  5
B2
  8
DATA
  6
CONTINUOUS
 62
     7
 10
-117.5
 20
82.0
 30
0.0
 11
-117.5
 21
-57.0
 31
0.0
  0
LINE
  5
B3
  8
DATA
  6
CONTINUOUS
 62
     7
 10
-127.3
 20
117.9999999999999
 30
0.0
 11
-113.7
 21
117.9999999999999
 31
0.0
  0
ARC
  5
B4
  8
DATA
  6
CONTINUOUS
 62
     7
 10
-120.5
 20
118.19714285714279
 30
0.0
 40
6.8028571428571381
 50
358.339369027484
 51
40.147715681512679
  0
ARC
  5
B5
  8
DATA
  6
CONTINUOUS
 62
     7
 10
-120.5
 20
118.19714285714279
 30
0.0
 40
6.8028571428571372
 50
57.051217221527352
 51
71.131724005769669
  0
ARC
  5
B6
  8
DATA
  6
CONTINUOUS
 62
     7
 10
-120.5
 20
118.19714285714279
 30
0.0
 40
6.8028571428571283
 50
84.093928529041563
 51
95.906071470958196
  0
ARC
  5
B7
  8
DATA
  6
CONTINUOUS
 62
     7
 10
-120.5
 20
118.19714285714279
 30
0.0
 40
6.8028571428571301
 50
108.8682759942302
 51
122.94878277847251
  0
ARC
  5
B8
  8
DATA
  6
CONTINUOUS
 62
     7
 10
-120.5
 20
118.19714285714279
 30
0.0
 40
6.8028571428571301
 50
139.85228431848731
 51
181.6606309725158
  0
LINE
  5
B9
  8
DATA
  6
CONTINUOUS
 62
     7
 10
-127.3
 20
117.59999999999989
 30
0.0
 11
-113.7
 21
117.59999999999989
 31
0.0
  0
ARC
  5
BA
  8
DATA
  6
CONTINUOUS
 62
     7
 10
-1411.0234374997069
 20
23.60859375001462
 30
0.0
 40
1288.846832806332
 50
2.5966830274777002
 51
3.6563060221864321
  0
ARC
  5
BB
  8
DATA
  6
CONTINUOUS
 62
     7
 10
-170.93426651735709
 20
102.19062150056
 30
0.0
 40
46.275243492031017
 50
4.4735025052547552
 51
19.450600290077549
  0
LINE
  5
BC
  8
DATA
  6
CONTINUOUS
 62
     7
 10
-126.9789091151773
 20
117.9999999999999
 30
0.0
 11
-126.9789091151773
 21
117.59999999999989
 31
0.0
  0
ARC
  5
BD
  8
DATA
  6
CONTINUOUS
 62
     7
 10
1170.0234374997081
 20
23.60859375001462
 30
0.0
 40
1288.846832806332
 50
176.34369397781359
 51
177.4033169725223
  0
ARC
  5
BE
  8
DATA
  6
CONTINUOUS
 62
     7
 10
-70.065733482642855
 20
102.19062150056
 30
0.0
 40
46.275243492031002
 50
160.5493997099224
 51
175.52649749474531
  0
LINE
  5
BF
  8
DATA
  6
CONTINUOUS
 62
     7
 10
-114.0210908848226
 20
117.9999999999999
 30
0.0
 11
-114.0210908848226
 21
117.59999999999989
 31
0.0
  0
ARC
  5
C0
  8
DATA
  6
CONTINUOUS
 62
     7
 10
-120.5
 20
117.19714285714279
 30
0.0
 40
6.8028571428571301
 50
40.147715681512771
 51
57.051217221527438
  0
ARC
  5
C1
  8
DATA
  6
CONTINUOUS
 62
     7
 10
-120.5
 20
117.19714285714279
 30
0.0
 40
6.8028571428571389
 50
71.131724005769556
 51
84.093928529041648
  0
ARC
  5
C2
  8
DATA
  6
CONTINUOUS
 62
     7
 10
-120.5
 20
117.19714285714279
 30
0.0
 40
6.8028571428571247
 50
95.906071470958366
 51
108.8682759942304
  0
ARC
  5
C3
  8
DATA
  6
CONTINUOUS
 62
     7
 10
-120.5
 20
117.19714285714279
 30
0.0
 40
6.8028571428571292
 50
122.94878277847251
 51
139.85228431848719
  0
LINE
  5
C4
  8
DATA
  6
CONTINUOUS
 62
     7
 10
-121.2
 20
119.4999999999999
 30
0.0
 11
-121.2
 21
124.9638898825696
 31
0.0
  0
LINE
  5
C5
  8
DATA
  6
CONTINUOUS
 62
     7
 10
-119.8
 20
124.9638898825696
 30
0.0
 11
-119.8
 21
119.4999999999999
 31
0.0
  0
LINE
  5
C6
  8
DATA
  6
CONTINUOUS
 62
     7
 10
-118.3
 20
124.6344454992533
 30
0.0
 11
-118.3
 21
119.4999999999999
 31
0.0
  0
LINE
  5
C7
  8
DATA
  6
CONTINUOUS
 62
     7
 10
-122.7
 20
119.4999999999999
 30
0.0
 11
-122.7
 21
124.6344454992533
 31
0.0
  0
LINE
  5
C8
  8
DATA
  6
CONTINUOUS
 62
     7
 10
-116.8
 20
123.9058086650284
 30
0.0
 11
-116.8
 21
119.4999999999999
 31
0.0
  0
LINE
  5
C9
  8
DATA
  6
CONTINUOUS
 62
     7
 10
-124.2
 20
119.5
 30
0.0
 11
-124.2
 21
123.9058086650284
 31
0.0
  0
LINE
  5
CA
  8
DATA
  6
CONTINUOUS
 62
     7
 10
-125.7
 20
119.4999999999999
 30
0.0
 11
-125.7
 21
122.5833559511594
 31
0.0
  0
LINE
  5
CB
  8
DATA
  6
CONTINUOUS
 62
     7
 10
-115.3
 20
122.5833559511594
 30
0.0
 11
-115.3
 21
119.4999999999999
 31
0.0
  0
LINE
  5
CC
  8
DATA
  6
CONTINUOUS
 62
     7
 10
-125.7
 20
119.4999999999999
 30
0.0
 11
-115.3
 21
119.4999999999999
 31
0.0
  0
LINE
  5
CD
  8
DATA
  6
CONTINUOUS
 62
     7
 10
-123.65000000000001
 20
112.59999999999989
 30
0.0
 11
-117.34999999999999
 21
112.59999999999989
 31
0.0
  0
LINE
  5
CE
  8
DATA
  6
CONTINUOUS
 62
     7
 10
-123.53992805755389
 20
111.6999999999999
 30
0.0
 11
-117.46007194244601
 21
111.6999999999999
 31
0.0
  0
LINE
  5
CF
  8
DATA
  6
CONTINUOUS
 62
     7
 10
-123.39316546762591
 20
110.4999999999999
 30
0.0
 11
-117.60683453237409
 21
110.4999999999999
 31
0.0
  0
LINE
  5
D0
  8
DATA
  6
CONTINUOUS
 62
     7
 10
-123.28309352517979
 20
109.59999999999989
 30
0.0
 11
-117.71690647481999
 21
109.59999999999989
 31
0.0
  0
LINE
  5
D1
  8
DATA
  6
CONTINUOUS
 62
     7
 10
-123.13633093525181
 20
108.40000000000001
 30
0.0
 11
-117.86366906474809
 21
108.40000000000001
 31
0.0
  0
LINE
  5
D2
  8
DATA
  6
CONTINUOUS
 62
     7
 10
-123.02625899280569
 20
107.4999999999999
 30
0.0
 11
-117.97374100719421
 21
107.4999999999999
 31
0.0
  0
LINE
  5
D3
  8
DATA
  6
CONTINUOUS
 62
     7
 10
-123.65000000000001
 20
112.59999999999989
 30
0.0
 11
-123.53992805755389
 21
111.6999999999999
 31
0.0
  0
LINE
  5
D4
  8
DATA
  6
CONTINUOUS
 62
     7
 10
-123.39316546762591
 20
110.4999999999999
 30
0.0
 11
-123.28309352517979
 21
109.59999999999989
 31
0.0
  0
LINE
  5
D5
  8
DATA
  6
CONTINUOUS
 62
     7
 10
-123.13633093525181
 20
108.40000000000001
 30
0.0
 11
-123.02625899280569
 21
107.4999999999999
 31
0.0
  0
LINE
  5
D6
  8
DATA
  6
CONTINUOUS
 62
     7
 10
-117.34999999999989
 20
112.59999999999989
 30
0.0
 11
-117.46007194244601
 21
111.6999999999999
 31
0.0
  0
LINE
  5
D7
  8
DATA
  6
CONTINUOUS
 62
     7
 10
-117.60683453237409
 20
110.4999999999999
 30
0.0
 11
-117.71690647482011
 21
109.59999999999989
 31
0.0
  0
LINE
  5
D8
  8
DATA
  6
CONTINUOUS
 62
     7
 10
-117.86366906474809
 20
108.40000000000001
 30
0.0
 11
-117.97374100719421
 21
107.4999999999999
 31
0.0
  0
CIRCLE
  5
D9
  8
DATA
  6
CONTINUOUS
 62
     7
 10
-120.5
 20
160.0
 30
0.0
 40
6.7999999999999972
  0
LINE
  5
DA
  8
DATA
  6
CONTINUOUS
 62
     7
 10
-121.2
 20
153.23612537076571
 30
0.0
 11
-121.2
 21
166.76387462923441
 31
0.0
  0
LINE
  5
DB
  8
DATA
  6
CONTINUOUS
 62
     7
 10
-119.7999999999999
 20
153.23612537076571
 30
0.0
 11
-119.7999999999999
 21
166.76387462923429
 31
0.0
  0
LINE
  5
DC
  8
DATA
  6
CONTINUOUS
 62
     7
 10
-122.6999999999999
 20
153.5657168231418
 30
0.0
 11
-122.6999999999999
 21
166.4342831768582
 31
0.0
  0
LINE
  5
DD
  8
DATA
  6
CONTINUOUS
 62
     7
 10
-124.2
 20
154.29473926976161
 30
0.0
 11
-124.2
 21
165.70526073023839
 31
0.0
  0
LINE
  5
DE
  8
DATA
  6
CONTINUOUS
 62
     7
 10
-125.7
 20
158.20835271328309
 30
0.0
 11
-125.7
 21
161.79164728671691
 31
0.0
  0
LINE
  5
DF
  8
DATA
  6
CONTINUOUS
 62
     7
 10
-118.3
 20
153.5657168231418
 30
0.0
 11
-118.3
 21
166.43428317685809
 31
0.0
  0
LINE
  5
E0
  8
DATA
  6
CONTINUOUS
 62
     7
 10
-116.8
 20
154.29473926976161
 30
0.0
 11
-116.8
 21
165.70526073023839
 31
0.0
  0
LINE
  5
E1
  8
DATA
  6
CONTINUOUS
 62
     7
 10
-115.3
 20
158.20835271328309
 30
0.0
 11
-115.3
 21
161.7916472867168
 31
0.0
  0
ARC
  5
E2
  8
DATA
  6
CONTINUOUS
 62
     7
 10
-120.4999999999997
 20
159.9999999999971
 30
0.0
 40
5.5000000000028724
 50
97.312021926266112
 51
113.5781784781917
  0
ARC
  5
E3
  8
DATA
  6
CONTINUOUS
 62
     7
 10
-120.4999999999997
 20
159.9999999999971
 30
0.0
 40
5.5000000000028724
 50
132.27790759882021
 51
227.72209240117971
  0
ARC
  5
E4
  8
DATA
  6
CONTINUOUS
 62
     7
 10
-120.4999999999997
 20
159.9999999999971
 30
0.0
 40
5.500000000002875
 50
246.42182152180831
 51
262.68797807373369
  0
ARC
  5
E5
  8
DATA
  6
CONTINUOUS
 62
     7
 10
-120.4999999999997
 20
159.9999999999971
 30
0.0
 40
5.500000000002859
 50
277.3120219262604
 51
293.57817847818558
  0
ARC
  5
E6
  8
DATA
  6
CONTINUOUS
 62
     7
 10
-120.4999999999997
 20
159.9999999999971
 30
0.0
 40
5.5000000000028644
 50
312.2779075988127
 51
47.72209240118729
  0
ARC
  5
E7
  8
DATA
  6
CONTINUOUS
 62
     7
 10
-120.4999999999997
 20
159.9999999999971
 30
0.0
 40
5.5000000000028484
 50
66.421821521814152
 51
82.687978073739544
  0
LINE
  5
E8
  8
DATA
  6
STYLE_05
 62
     7
 10
-134.5
 20
102.9778479005705
 30
0.0
 11
-134.5
 21
116.34577164629771
 31
0.0
  0
LINE
  5
E9
  8
DATA
  6
STYLE_05
 62
     7
 10
-110.5
 20
94.960214239022179
 30
0.0
 11
-130.5
 21
94.960214239022179
 31
0.0
  0
LINE
  5
EA
  8
DATA
  6
STYLE_05
 62
     7
 10
-106.5
 20
116.34577164629771
 30
0.0
 11
-106.5
 21
102.9778479005702
 31
0.0
  0
CIRCLE
  5
EB
  8
DATA
  6
STYLE_05
 62
     7
 10
-120.5
 20
160.0
 30
0.0
 40
14.0
  0
ARC
  5
EC
  8
DATA
  6
STYLE_05
 62
     7
 10
-123.9574515799702
 20
103.23091121081541
 30
0.0
 40
10.54558524822899
 50
181.3750637120782
 51
231.65418307505209
  0
ARC
  5
ED
  8
DATA
  6
STYLE_05
 62
     7
 10
-117.0425484200298
 20
103.23091121081541
 30
0.0
 40
10.54558524822899
 50
308.345816924948
 51
358.62493628792191
  0
ARC
  5
EE
  8
DATA
  6
STYLE_05
 62
     7
 10
-114.41456171296581
 20
113.53684256944859
 30
0.0
 40
20.56864424518232
 50
111.5745939268447
 51
155.041058406926
  0
ARC
  5
EF
  8
DATA
  6
STYLE_05
 62
     7
 10
-126.58543828703419
 20
113.53684256944859
 30
0.0
 40
20.568644245182359
 50
24.958941593074389
 51
69.546977085883441
  0
LINE
  5
F0
  8
DATA
  6
STYLE_05
 62
     7
 10
-120.4137185340614
 20
132.94
 30
0.0
 11
-120.5000000000005
 21
132.94
 31
0.0
  0
ARC
  5
F1
  8
DATA
  6
STYLE_05
 62
     7
 10
-120.45685926703089
 20
128.6076432377541
 30
0.0
 40
4.3325715502711644
 50
75.853174822941952
 51
110.552898014096
  0
ARC
  5
F2
  8
DATA
  6
STYLE_05
 62
     7
 10
-105.3453492382839
 20
112.3168866765606
 30
0.0
 40
29.431710367170339
 50
160.34550551702731
 51
172.13211930153761
  0
ARC
  5
F3
  8
DATA
  6
STYLE_05
 62
     7
 10
-135.654650761716
 20
112.3168866765606
 30
0.0
 40
29.431710367170361
 50
7.8678806984623391
 51
19.654494482972691
  0
LINE
  5
F4
  8
DATA
  6
CONTINUOUS
 62
     7
 10
-117.9705882352941
 20
-151.0
 30
0.0
 11
-117.5
 21
-150.93388429752059
 31
0.0
  0
LINE
  5
F5
  8
DATA
  6
CONTINUOUS
 62
     7
 10
-123.5
 20
-148.7768595041322
 30
0.0
 11
-117.5
 21
-147.93388429752059
 31
0.0
  0
LINE
  5
F6
  8
DATA
  6
CONTINUOUS
 62
     7
 10
-123.5
 20
-145.7768595041322
 30
0.0
 11
-117.5
 21
-144.93388429752059
 31
0.0
  0
LINE
  5
F7
  8
DATA
  6
CONTINUOUS
 62
     7
 10
-123.5
 20
-142.7768595041322
 30
0.0
 11
-117.5
 21
-141.93388429752059
 31
0.0
  0
LINE
  5
F8
  8
DATA
  6
CONTINUOUS
 62
     7
 10
-123.5
 20
-139.7768595041322
 30
0.0
 11
-117.5
 21
-138.93388429752059
 31
0.0
  0
LINE
  5
F9
  8
DATA
  6
CONTINUOUS
 62
     7
 10
-123.5
 20
-136.7768595041322
 30
0.0
 11
-117.5
 21
-135.93388429752059
 31
0.0
  0
LINE
  5
FA
  8
DATA
  6
CONTINUOUS
 62
     7
 10
-123.5
 20
-133.7768595041322
 30
0.0
 11
-117.5
 21
-132.93388429752059
 31
0.0
  0
LINE
  5
FB
  8
DATA
  6
CONTINUOUS
 62
     7
 10
-123.5
 20
-130.7768595041322
 30
0.0
 11
-117.5
 21
-129.93388429752059
 31
0.0
  0
LINE
  5
FC
  8
DATA
  6
CONTINUOUS
 62
     7
 10
-123.5
 20
-127.7768595041322
 30
0.0
 11
-117.5
 21
-126.93388429752061
 31
0.0
  0
LINE
  5
FD
  8
DATA
  6
CONTINUOUS
 62
     7
 10
-123.5
 20
-124.7768595041322
 30
0.0
 11
-117.5
 21
-123.93388429752061
 31
0.0
  0
LINE
  5
FE
  8
DATA
  6
CONTINUOUS
 62
     7
 10
-123.5
 20
-121.7768595041322
 30
0.0
 11
-117.5
 21
-120.93388429752061
 31
0.0
  0
LINE
  5
FF
  8
DATA
  6
CONTINUOUS
 62
     7
 10
-123.5
 20
-118.7768595041322
 30
0.0
 11
-117.5
 21
-117.93388429752061
 31
0.0
  0
LINE
  5
100
  8
DATA
  6
CONTINUOUS
 62
     7
 10
-123.5
 20
-115.7768595041322
 30
0.0
 11
-117.5
 21
-114.93388429752061
 31
0.0
  0
LINE
  5
101
  8
DATA
  6
CONTINUOUS
 62
     7
 10
-123.5
 20
-112.7768595041322
 30
0.0
 11
-117.5
 21
-111.93388429752061
 31
0.0
  0
LINE
  5
102
  8
DATA
  6
CONTINUOUS
 62
     7
 10
-123.5
 20
-109.7768595041322
 30
0.0
 11
-117.5
 21
-108.93388429752061
 31
0.0
  0
LINE
  5
103
  8
DATA
  6
CONTINUOUS
 62
     7
 10
-123.5
 20
-106.7768595041322
 30
0.0
 11
-117.5
 21
-105.93388429752061
 31
0.0
  0
LINE
  5
104
  8
DATA
  6
CONTINUOUS
 62
     7
 10
-123.5
 20
-103.7768595041322
 30
0.0
 11
-117.5
 21
-102.93388429752061
 31
0.0
  0
LINE
  5
105
  8
DATA
  6
CONTINUOUS
 62
     7
 10
-123.5
 20
-100.7768595041322
 30
0.0
 11
-117.5
 21
-99.933884297520663
 31
0.0
  0
LINE
  5
106
  8
DATA
  6
CONTINUOUS
 62
     7
 10
-123.5
 20
-97.776859504132233
 30
0.0
 11
-117.5
 21
-96.933884297520663
 31
0.0
  0
LINE
  5
107
  8
DATA
  6
CONTINUOUS
 62
     7
 10
-123.5
 20
-94.776859504132219
 30
0.0
 11
-117.5
 21
-93.933884297520663
 31
0.0
  0
LINE
  5
108
  8
DATA
  6
CONTINUOUS
 62
     7
 10
-123.5
 20
-91.776859504132233
 30
0.0
 11
-117.5
 21
-90.933884297520649
 31
0.0
  0
LINE
  5
109
  8
DATA
  6
CONTINUOUS
 62
     7
 10
-123.5
 20
-88.776859504132204
 30
0.0
 11
-117.5
 21
-87.933884297520663
 31
0.0
  0
LINE
  5
10A
  8
DATA
  6
CONTINUOUS
 62
     7
 10
-50.0
 20
-260.0
 30
0.0
 11
-50.0
 21
-194.03015018276801
 31
0.0
  0
LINE
  5
10B
  8
DATA
  6
CONTINUOUS
 62
     7
 10
-31.0
 20
-260.0
 30
0.0
 11
-50.0
 21
-260.0
 31
0.0
  0
LINE
  5
10C
  8
DATA
  6
CONTINUOUS
 62
     7
 10
-43.5
 20
-124.04682634357439
 30
0.0
 11
-43.5
 21
-151.0
 31
0.0
  0
LINE
  5
10D
  8
DATA
  6
CONTINUOUS
 62
     7
 10
-37.5
 20
-126.53210771781301
 30
0.0
 11
-37.5
 21
-151.0
 31
0.0
  0
LINE
  5
10E
  8
DATA
  6
CONTINUOUS
 62
     7
 10
-45.100000000000001
 20
-151.0
 30
0.0
 11
-35.90000000000002
 21
-151.0
 31
0.0
  0
LINE
  5
10F
  8
DATA
  6
CONTINUOUS
 62
     7
 10
-49.594975121799848
 20
-185.99025370581859
 30
0.0
 11
-49.090970526938413
 21
-181.0006082166901
 31
0.0
  0
ARC
  5
110
  8
DATA
  6
CONTINUOUS
 62
     7
 10
-860.14499999996315
 20
-42.257272727279897
 30
0.0
 40
822.767161880407
 50
350.43111332651512
 51
351.41338444162358
  0
ARC
  5
111
  8
DATA
  6
CONTINUOUS
 62
     7
 10
-104.9535714285702
 20
-151.13214285714301
 30
0.0
 40
60.002002730179818
 50
346.53862234905949
 51
355.9690531258301
  0
LINE
  5
112
  8
DATA
  6
CONTINUOUS
 62
     7
 10
-45.100000000000001
 20
-155.34999999999999
 30
0.0
 11
-45.100000000000001
 21
-151.0
 31
0.0
  0
ARC
  5
113
  8
DATA
  6
CONTINUOUS
 62
     7
 10
-19.242854856295551
 20
-184.0155693955428
 30
0.0
 40
29.999999999967748
 50
170.43111332651091
 51
174.2321111020859
  0
ARC
  5
114
  8
DATA
  6
CONTINUOUS
 62
     7
 10
29.999999999999989
 20
-194.03015018276801
 30
0.0
 40
79.999999999999986
 50
174.2321111020859
 51
180.0
  0
LINE
  5
115
  8
DATA
  6
CONTINUOUS
 62
     7
 10
-31.0
 20
-260.0
 30
0.0
 11
-31.0
 21
-194.03015018276801
 31
0.0
  0
LINE
  5
116
  8
DATA
  6
CONTINUOUS
 62
     7
 10
-31.405024878200152
 20
-185.99025370581859
 30
0.0
 11
-31.909029473061601
 21
-181.0006082166901
 31
0.0
  0
ARC
  5
117
  8
DATA
  6
CONTINUOUS
 62
     7
 10
779.14499999996315
 20
-42.257272727279897
 30
0.0
 40
822.767161880407
 50
188.58661555837639
 51
189.56888667348491
  0
ARC
  5
118
  8
DATA
  6
CONTINUOUS
 62
     7
 10
23.953571428570228
 20
-151.13214285714301
 30
0.0
 40
60.002002730179811
 50
184.0309468741699
 51
193.46137765094051
  0
LINE
  5
119
  8
DATA
  6
CONTINUOUS
 62
     7
 10
-35.899999999999977
 20
-155.34999999999999
 30
0.0
 11
-35.899999999999977
 21
-151.0
 31
0.0
  0
ARC
  5
11A
  8
DATA
  6
CONTINUOUS
 62
     7
 10
-61.757145143704463
 20
-184.0155693955428
 30
0.0
 40
29.999999999967759
 50
5.7678888979140339
 51
9.5688866734890876
  0
ARC
  5
11B
  8
DATA
  6
CONTINUOUS
 62
     7
 10
-111.0
 20
-194.03015018276801
 30
0.0
 40
80.0
 50
0.0000000000000568
 51
5.7678888979140748
  0
LINE
  5
11C
  8
DATA
  6
CONTINUOUS
 62
     7
 10
-10.31410386040795
 20
-80.031074544248966
 30
0.0
 11
-3.5258787610170201
 21
-86.819299643639795
 31
0.0
  0
LINE
  5
11D
  8
DATA
  6
CONTINUOUS
 62
     7
 10
12.171891781324449
 20
-60.090663314788408
 30
0.0
 11
16.414532468443792
 21
-64.333304001907706
 31
0.0
  0
LINE
  5
11E
  8
DATA
  6
CONTINUOUS
 62
     7
 10
-10.31410386040795
 20
-80.031074544248966
 30
0.0
 11
-6.7785699544751834
 21
-76.495540638316271
 31
0.0
  0
LINE
  5
11F
  8
DATA
  6
CONTINUOUS
 62
     7
 10
-3.5258787610170201
 20
-86.819299643639795
 30
0.0
 11
0.0096551449157321
 21
-83.283765737707057
 31
0.0
  0
ARC
  5
120
  8
DATA
  6
CONTINUOUS
 62
     7
 10
107.7822401225876
 20
-189.68506416644809
 30
0.0
 40
161.0467244064229
 50
126.4186464218738
 51
135.3449741701483
  0
LINE
  5
121
  8
DATA
  6
CONTINUOUS
 62
     7
 10
-3.5258787610170201
 20
-86.819299643639795
 30
0.0
 11
0.0096551449157321
 21
-83.283765737707057
 31
0.0
  0
ARC
  5
122
  8
DATA
  6
CONTINUOUS
 62
     7
 10
-113.1798683832162
 20
31.277044339355651
 30
0.0
 40
161.04672440642301
 50
314.65502582985181
 51
323.58135357812608
  0
LINE
  5
123
  8
DATA
  6
CONTINUOUS
 62
     7
 10
110.4597343662543
 20
38.197179270141781
 30
0.0
 11
114.7023750533736
 21
33.954538583022497
 31
0.0
  0
LINE
  5
124
  8
DATA
  6
CONTINUOUS
 62
     7
 10
12.171891781324449
 20
-60.090663314788408
 30
0.0
 11
110.4597343662543
 21
38.197179270141781
 31
0.0
  0
LINE
  5
125
  8
DATA
  6
CONTINUOUS
 62
     7
 10
114.7023750533736
 20
33.954538583022497
 30
0.0
 11
16.414532468443792
 21
-64.333304001907706
 31
0.0
  0
LINE
  5
126
  8
DATA
  6
CONTINUOUS
 62
     7
 10
133.22857272046079
 20
66.340029161366374
 30
0.0
 11
142.8452249445977
 21
56.723376937229318
 31
0.0
  0
ARC
  5
127
  8
DATA
  6
CONTINUOUS
 62
     7
 10
138.1762998836775
 20
61.67110410044603
 30
0.0
 40
6.8028571428571087
 50
313.33936902748388
 51
355.14771568151292
  0
ARC
  5
128
  8
DATA
  6
CONTINUOUS
 62
     7
 10
138.1762998836775
 20
61.67110410044603
 30
0.0
 40
6.8028571428570652
 50
12.051217221527549
 51
26.131724005769929
  0
ARC
  5
129
  8
DATA
  6
CONTINUOUS
 62
     7
 10
138.1762998836775
 20
61.67110410044603
 30
0.0
 40
6.8028571428570919
 50
39.09392852904201
 51
50.906071470958622
  0
ARC
  5
12A
  8
DATA
  6
CONTINUOUS
 62
     7
 10
138.1762998836775
 20
61.67110410044603
 30
0.0
 40
6.8028571428571327
 50
63.868275994230501
 51
77.948782778472605
  0
ARC
  5
12B
  8
DATA
  6
CONTINUOUS
 62
     7
 10
138.1762998836775
 20
61.67110410044603
 30
0.0
 40
6.8028571428571372
 50
94.852284318487165
 51
136.66063097251521
  0
LINE
  5
12C
  8
DATA
  6
CONTINUOUS
 62
     7
 10
132.94573000798621
 20
66.057186448891713
 30
0.0
 11
142.5623822321231
 21
56.440534224754693
 31
0.0
  0
ARC
  5
12D
  8
DATA
  6
CONTINUOUS
 62
     7
 10
-841.24577854877759
 20
907.32477354041407
 30
0.0
 40
1288.846832806325
 50
317.59668302747741
 51
318.6563060221863
  0
ARC
  5
12E
  8
DATA
  6
CONTINUOUS
 62
     7
 10
91.195568230638173
 20
86.015196164591501
 30
0.0
 40
46.275243492030476
 50
319.47350250525483
 51
334.45060029007772
  0
LINE
  5
12F
  8
DATA
  6
CONTINUOUS
 62
     7
 10
133.4556182624961
 20
66.112983619331075
 30
0.0
 11
133.1727755500215
 21
65.830140906856457
 31
0.0
  0
ARC
  5
130
  8
DATA
  6
CONTINUOUS
 62
     7
 10
983.8299693236562
 20
-917.7509743320195
 30
0.0
 40
1288.84683280634
 50
131.34369397781381
 51
132.4033169725225
  0
ARC
  5
131
  8
DATA
  6
CONTINUOUS
 62
     7
 10
162.5203919478231
 20
14.690372447406149
 30
0.0
 40
46.275243492030889
 50
115.5493997099222
 51
130.52649749474489
  0
LINE
  5
132
  8
DATA
  6
CONTINUOUS
 62
     7
 10
142.61817940256239
 20
56.950422479264603
 30
0.0
 11
142.33533669008779
 21
56.66757976678997
 31
0.0
  0
LINE
  5
133
  8
DATA
  6
CONTINUOUS
 62
     7
 10
131.99113585338441
 20
59.940712791628101
 30
0.0
 11
136.44590857485949
 21
55.48594007015285
 31
0.0
  0
LINE
  5
134
  8
DATA
  6
CONTINUOUS
 62
     7
 10
131.43257236723841
 20
59.226484071638232
 30
0.0
 11
135.7316798548697
 21
54.927376584006879
 31
0.0
  0
LINE
  5
135
  8
DATA
  6
CONTINUOUS
 62
     7
 10
130.6878210523773
 20
58.274179111651748
 30
0.0
 11
134.77937489488329
 21
54.182625269145689
 31
0.0
  0
LINE
  5
136
  8
DATA
  6
CONTINUOUS
 62
     7
 10
130.1292575662313
 20
57.559950391661872
 30
0.0
 11
134.06514617489341
 21
53.624061782999753
 31
0.0
  0
LINE
  5
137
  8
DATA
  6
CONTINUOUS
 62
     7
 10
129.38450625137011
 20
56.60764543167538
 30
0.0
 11
133.11284121490689
 21
52.879310468138542
 31
0.0
  0
LINE
  5
138
  8
DATA
  6
CONTINUOUS
 62
     7
 10
128.8259427652242
 20
55.893416711685539
 30
0.0
 11
132.39861249491699
 21
52.320746981992599
 31
0.0
  0
LINE
  5
139
  8
DATA
  6
CONTINUOUS
 62
     7
 10
131.99113585338441
 20
59.940712791628101
 30
0.0
 11
131.43257236723841
 21
59.226484071638232
 31
0.0
  0
LINE
  5
13A
  8
DATA
  6
CONTINUOUS
 62
     7
 10
130.6878210523773
 20
58.274179111651748
 30
0.0
 11
130.1292575662313
 21
57.559950391661893
 31
0.0
  0
LINE
  5
13B
  8
DATA
  6
CONTINUOUS
 62
     7
 10
129.38450625137011
 20
56.60764543167538
 30
0.0
 11
128.8259427652242
 21
55.893416711685539
 31
0.0
  0
LINE
  5
13C
  8
DATA
  6
CONTINUOUS
 62
     7
 10
136.4459085748596
 20
55.485940070152822
 30
0.0
 11
135.7316798548697
 21
54.927376584006893
 31
0.0
  0
LINE
  5
13D
  8
DATA
  6
CONTINUOUS
 62
     7
 10
134.77937489488329
 20
54.182625269145689
 30
0.0
 11
134.06514617489341
 21
53.624061782999753
 31
0.0
  0
LINE
  5
13E
  8
DATA
  6
CONTINUOUS
 62
     7
 10
133.11284121490689
 20
52.879310468138542
 30
0.0
 11
132.39861249491699
 21
52.320746981992599
 31
0.0
  0
LINE
  5
13F
  8
DATA
  6
STYLE_05
 62
     7
 10
117.5151382783957
 20
60.808932368387218
 30
0.0
 11
126.9676878093839
 21
70.261481899375596
 31
0.0
  0
LINE
  5
140
  8
DATA
  6
STYLE_05
 62
     7
 10
128.81637789572221
 20
38.169046488759712
 30
0.0
 11
114.6742422719915
 21
52.311182112490648
 31
0.0
  0
LINE
  5
141
  8
DATA
  6
STYLE_05
 62
     7
 10
146.76667768260691
 20
50.462492026152248
 30
0.0
 11
137.31412815161841
 21
41.009942495163649
 31
0.0
  0
ARC
  5
142
  8
DATA
  6
STYLE_05
 62
     7
 10
125.1487885399299
 20
53.53316767234034
 30
0.0
 40
10.545585248228919
 50
136.375063712078
 51
186.65418307505209
  0
ARC
  5
143
  8
DATA
  6
STYLE_05
 62
     7
 10
130.0383634555719
 20
48.643592756698169
 30
0.0
 40
10.54558524822899
 50
263.34581692494788
 51
313.62493628792117
  0
ARC
  5
144
  8
DATA
  6
STYLE_05
 62
     7
 10
139.1840246271374
 20
54.072719485397741
 30
0.0
 40
20.56864424518221
 50
66.574593926844855
 51
110.041058406926
  0
ARC
  5
145
  8
DATA
  6
STYLE_05
 62
     7
 10
130.57791526862931
 20
62.67882884390599
 30
0.0
 40
20.568644245182149
 50
339.9589415930742
 51
24.546977085883611
  0
LINE
  5
146
  8
DATA
  6
STYLE_05
 62
     7
 10
148.66208435311211
 20
72.034868150568911
 30
0.0
 11
148.6010741434558
 21
72.095878360225157
 31
0.0
  0
ARC
  5
147
  8
DATA
  6
STYLE_05
 62
     7
 10
145.56814040318051
 20
69.001934410293615
 30
0.0
 40
4.3325715502711111
 50
30.85317482294154
 51
65.552898014095874
  0
ARC
  5
148
  8
DATA
  6
STYLE_05
 62
     7
 10
144.7342871833969
 20
46.797178759918957
 30
0.0
 40
29.431710367170229
 50
115.34550551702721
 51
127.1321193015373
  0
ARC
  5
149
  8
DATA
  6
STYLE_05
 62
     7
 10
123.30237454315071
 20
68.229091400165515
 30
0.0
 40
29.431710367170091
 50
322.86788069846187
 51
334.65449448297232
  0
LINE
  5
14A
  8
DATA
  6
CONTINUOUS
 62
     7
 10
-37.970588235294152
 20
-151.0
 30
0.0
 11
-37.5
 21
-150.93388429752059
 31
0.0
  0
LINE
  5
14B
  8
DATA
  6
CONTINUOUS
 62
     7
 10
-43.5
 20
-148.7768595041322
 30
0.0
 11
-37.5
 21
-147.93388429752059
 31
0.0
  0
LINE
  5
14C
  8
DATA
  6
CONTINUOUS
 62
     7
 10
-43.5
 20
-145.7768595041322
 30
0.0
 11
-37.5
 21
-144.93388429752059
 31
0.0
  0
LINE
  5
14D
  8
DATA
  6
CONTINUOUS
 62
     7
 10
-43.5
 20
-142.7768595041322
 30
0.0
 11
-37.5
 21
-141.93388429752059
 31
0.0
  0
LINE
  5
14E
  8
DATA
  6
CONTINUOUS
 62
     7
 10
-43.5
 20
-139.7768595041322
 30
0.0
 11
-37.5
 21
-138.93388429752059
 31
0.0
  0
LINE
  5
14F
  8
DATA
  6
CONTINUOUS
 62
     7
 10
-43.5
 20
-136.7768595041322
 30
0.0
 11
-37.5
 21
-135.93388429752059
 31
0.0
  0
LINE
  5
150
  8
DATA
  6
CONTINUOUS
 62
     7
 10
-43.5
 20
-133.7768595041322
 30
0.0
 11
-37.5
 21
-132.93388429752059
 31
0.0
  0
LINE
  5
151
  8
DATA
  6
CONTINUOUS
 62
     7
 10
-43.5
 20
-130.7768595041322
 30
0.0
 11
-37.5
 21
-129.93388429752059
 31
0.0
  0
LINE
  5
152
  8
DATA
  6
CONTINUOUS
 62
     7
 10
-27.26830380733713
 20
-99.530858903449513
 30
0.0
 11
-22.42958963525064
 21
-103.1774261056016
 31
0.0
  0
LINE
  5
153
  8
DATA
  6
CONTINUOUS
 62
     7
 10
-25.146983463777481
 20
-97.409538559889867
 30
0.0
 11
-20.308269291690959
 21
-101.05610576204199
 31
0.0
  0
LINE
  5
154
  8
DATA
  6
CONTINUOUS
 62
     7
 10
-23.025663120217828
 20
-95.288218216330236
 30
0.0
 11
-18.186948948131288
 21
-98.934785418482363
 31
0.0
  0
LINE
  5
155
  8
DATA
  6
CONTINUOUS
 62
     7
 10
-20.90434277665814
 20
-93.166897872770591
 30
0.0
 11
-16.065628604571611
 21
-96.813465074922689
 31
0.0
  0
LINE
  5
156
  8
DATA
  6
CONTINUOUS
 62
     7
 10
-18.783022433098481
 20
-91.045577529210988
 30
0.0
 11
-13.944308261011971
 21
-94.692144731363086
 31
0.0
  0
LINE
  5
157
  8
DATA
  6
CONTINUOUS
 62
     7
 10
-16.66170208953881
 20
-88.924257185651328
 30
0.0
 11
-11.82298791745232
 21
-92.570824387803427
 31
0.0
  0
LINE
  5
158
  8
DATA
  6
CONTINUOUS
 62
     7
 10
-14.54038174597915
 20
-86.802936842091697
 30
0.0
 11
-9.7016675738926423
 21
-90.449504044243781
 31
0.0
  0
LINE
  5
159
  8
DATA
  6
CONTINUOUS
 62
     7
 10
-12.4190614024195
 20
-84.681616498532065
 30
0.0
 11
-7.5803472303329951
 21
-88.328183700684136
 31
0.0
  0
LINE
  5
15A
  8
DATA
  6
CONTINUOUS
 62
     7
 10
-10.297741058859829
 20
-82.560296154972434
 30
0.0
 11
-5.4590268867733123
 21
-86.206863357124547
 31
0.0
  0
LINE
  5
15B
  8
DATA
  6
CONTINUOUS
 62
     7
 10
-37.642135623730923
 20
-109.9046907198434
 30
0.0
 11
-9.0413116542721461
 21
-81.303866750384785
 31
0.0
  0
LINE
  5
15C
  8
DATA
  6
CONTINUOUS
 62
     7
 10
-31.64213562373093
 20
-112.3899720940821
 30
0.0
 11
-4.7986709671528009
 21
-85.546507437504033
 31
0.0
  0
ARC
  5
15D
  8
DATA
  6
CONTINUOUS
 62
     7
 10
-17.5
 20
-126.53210771781301
 30
0.0
 40
20.000000000000011
 50
134.99999999999989
 51
179.99999999999989
  0
ARC
  5
15E
  8
DATA
  6
CONTINUOUS
 62
     7
 10
-23.5
 20
-124.04682634357439
 30
0.0
 40
20.0
 50
134.99999999999989
 51
180.0
  0
LINE
  5
15F
  8
DATA
  6
CONTINUOUS
 62
     7
 10
-43.5
 20
-127.7768595041322
 30
0.0
 11
-37.5
 21
-126.93388429752061
 31
0.0
  0
LINE
  5
160
  8
DATA
  6
CONTINUOUS
 62
     7
 10
-43.5
 20
-124.7768595041322
 30
0.0
 11
-37.5
 21
-123.93388429752061
 31
0.0
  0
LINE
  5
161
  8
DATA
  6
CONTINUOUS
 62
     7
 10
-43.368646844394398
 20
-121.7584049285513
 30
0.0
 11
-36.665964097067203
 21
-120.816705699588
 31
0.0
  0
LINE
  5
162
  8
DATA
  6
CONTINUOUS
 62
     7
 10
-42.764680181561772
 20
-118.67355010815329
 30
0.0
 11
-35.415002903696788
 21
-117.6409508211806
 31
0.0
  0
LINE
  5
163
  8
DATA
  6
CONTINUOUS
 62
     7
 10
-29.461855385581959
 20
-101.72441048169451
 30
0.0
 11
-24.553702433816479
 21
-105.3015389041676
 31
0.0
  0
LINE
  5
164
  8
DATA
  6
CONTINUOUS
 62
     7
 10
-31.812151417438571
 20
-104.07470651355111
 30
0.0
 11
-26.988032057465318
 21
-107.73586852781651
 31
0.0
  0
LINE
  5
165
  8
DATA
  6
CONTINUOUS
 62
     7
 10
-34.601239117156069
 20
-106.8637942132686
 30
0.0
 11
-29.836776313439191
 21
-110.58461278379031
 31
0.0
  0
ARC
  5
166
  8
DATA
  6
CONTINUOUS
 62
     7
 10
138.1762998836775
 20
61.67110410044603
 30
0.0
 40
6.8028571428571087
 50
355.14771568151292
 51
94.852284318486937
  0
TEXT
  5
167
  8
DATA
 62
     7
 10
-85.292211011175311
 20
133.5407672910728
 30
0.0
 40
8.1442057291666661
  1
ウインドスクリーン
 41
0.7
 11
-85.292211011175311
 21
141.6849730202394
 31
0.0
 73
     3
  0
LINE
  5
168
  8
DATA
  6
CONTINUOUS
 62
     7
 10
-107.9376914098162
 20
122.2161664191548
 30
0.0
 11
-90.0
 21
130.0
 31
0.0
  0
LINE
  5
169
  8
DATA
  6
CONTINUOUS
 62
     7
 10
-107.9376914098162
 20
122.2161664191548
 30
0.0
 11
-100.167112941136
 21
128.28720768637729
 31
0.0
  0
LINE
  5
16A
  8
DATA
  6
CONTINUOUS
 62
     7
 10
-107.9376914098162
 20
122.2161664191548
 30
0.0
 11
-98.172652420227507
 21
123.58855314965299
 31
0.0
  0
LINE
  5
16B
  8
DATA
  6
CONTINUOUS
 62
     7
 10
-90.0
 20
130.0
 30
0.0
 11
15.0
 21
130.0
 31
0.0
  0
LINE
  5
16C
  8
DATA
  6
CONTINUOUS
 62
     7
 10
-31.64213562373093
 20
-112.3899720940821
 30
0.0
 11
-37.642135623730923
 21
-109.9046907198434
 31
0.0
  0
LINE
  5
16D
  8
DATA
  6
CONTINUOUS
 62
     7
 10
-33.5833199455043
 20
-114.64401201116
 30
0.0
 11
-40.537656208383673
 21
-113.5721773792928
 31
0.0
  0
ENDSEC
  0
EOF
